ISO-10303-21;
HEADER;
/* Generated by software containing ST-Developer
 * from STEP Tools, Inc. (www.steptools.com) 
 */

FILE_DESCRIPTION(
/* description */ (''),
/* implementation_level */ '2;1');

FILE_NAME(
/* name */ 
'C:\\Users\\Richard\\Desktop\\export\\#Motedis\\Tconn plates\\T-CONN 1
TO1 [129 129 5] 45 H5 D8-5.stp',
/* time_stamp */ '2016-10-12T10:40:19+02:00',
/* author */ ('Richard'),
/* organization */ (''),
/* preprocessor_version */ 'ST-DEVELOPER v16.1',
/* originating_system */ 'Autodesk Inventor 2016',
/* authorisation */ '');

FILE_SCHEMA (('AUTOMOTIVE_DESIGN { 1 0 10303 214 3 1 1 }'));
ENDSEC;

DATA;
#10=MECHANICAL_DESIGN_GEOMETRIC_PRESENTATION_REPRESENTATION('',(#13),#617);
#11=SHAPE_REPRESENTATION_RELATIONSHIP('SRR','None',#626,#12);
#12=ADVANCED_BREP_SHAPE_REPRESENTATION('',(#14),#616);
#13=STYLED_ITEM('',(#635),#14);
#14=MANIFOLD_SOLID_BREP('Solid1',#363);
#15=FACE_BOUND('',#60,.T.);
#16=FACE_BOUND('',#61,.T.);
#17=FACE_BOUND('',#62,.T.);
#18=FACE_BOUND('',#63,.T.);
#19=FACE_BOUND('',#64,.T.);
#20=FACE_BOUND('',#74,.T.);
#21=FACE_BOUND('',#76,.T.);
#22=FACE_BOUND('',#78,.T.);
#23=FACE_BOUND('',#80,.T.);
#24=FACE_BOUND('',#82,.T.);
#25=FACE_BOUND('',#86,.T.);
#26=FACE_BOUND('',#87,.T.);
#27=FACE_BOUND('',#88,.T.);
#28=FACE_BOUND('',#89,.T.);
#29=FACE_BOUND('',#90,.T.);
#30=PLANE('',#368);
#31=PLANE('',#369);
#32=PLANE('',#382);
#33=PLANE('',#385);
#34=PLANE('',#388);
#35=PLANE('',#403);
#36=PLANE('',#404);
#37=PLANE('',#405);
#38=FACE_OUTER_BOUND('',#57,.T.);
#39=FACE_OUTER_BOUND('',#58,.T.);
#40=FACE_OUTER_BOUND('',#59,.T.);
#41=FACE_OUTER_BOUND('',#65,.T.);
#42=FACE_OUTER_BOUND('',#66,.T.);
#43=FACE_OUTER_BOUND('',#67,.T.);
#44=FACE_OUTER_BOUND('',#68,.T.);
#45=FACE_OUTER_BOUND('',#69,.T.);
#46=FACE_OUTER_BOUND('',#70,.T.);
#47=FACE_OUTER_BOUND('',#71,.T.);
#48=FACE_OUTER_BOUND('',#72,.T.);
#49=FACE_OUTER_BOUND('',#73,.T.);
#50=FACE_OUTER_BOUND('',#75,.T.);
#51=FACE_OUTER_BOUND('',#77,.T.);
#52=FACE_OUTER_BOUND('',#79,.T.);
#53=FACE_OUTER_BOUND('',#81,.T.);
#54=FACE_OUTER_BOUND('',#83,.T.);
#55=FACE_OUTER_BOUND('',#84,.T.);
#56=FACE_OUTER_BOUND('',#85,.T.);
#57=EDGE_LOOP('',(#241,#242,#243,#244));
#58=EDGE_LOOP('',(#245,#246,#247,#248));
#59=EDGE_LOOP('',(#249,#250,#251,#252,#253,#254,#255,#256,#257,#258,#259,
#260));
#60=EDGE_LOOP('',(#261));
#61=EDGE_LOOP('',(#262));
#62=EDGE_LOOP('',(#263));
#63=EDGE_LOOP('',(#264));
#64=EDGE_LOOP('',(#265));
#65=EDGE_LOOP('',(#266,#267,#268,#269));
#66=EDGE_LOOP('',(#270,#271,#272,#273));
#67=EDGE_LOOP('',(#274,#275,#276,#277));
#68=EDGE_LOOP('',(#278,#279,#280,#281));
#69=EDGE_LOOP('',(#282,#283,#284,#285));
#70=EDGE_LOOP('',(#286,#287,#288,#289));
#71=EDGE_LOOP('',(#290,#291,#292,#293));
#72=EDGE_LOOP('',(#294,#295,#296,#297));
#73=EDGE_LOOP('',(#298));
#74=EDGE_LOOP('',(#299));
#75=EDGE_LOOP('',(#300));
#76=EDGE_LOOP('',(#301));
#77=EDGE_LOOP('',(#302));
#78=EDGE_LOOP('',(#303));
#79=EDGE_LOOP('',(#304));
#80=EDGE_LOOP('',(#305));
#81=EDGE_LOOP('',(#306));
#82=EDGE_LOOP('',(#307));
#83=EDGE_LOOP('',(#308,#309,#310,#311));
#84=EDGE_LOOP('',(#312,#313,#314,#315));
#85=EDGE_LOOP('',(#316,#317,#318,#319,#320,#321,#322,#323,#324,#325,#326,
#327));
#86=EDGE_LOOP('',(#328));
#87=EDGE_LOOP('',(#329));
#88=EDGE_LOOP('',(#330));
#89=EDGE_LOOP('',(#331));
#90=EDGE_LOOP('',(#332));
#91=LINE('',#520,#115);
#92=LINE('',#523,#116);
#93=LINE('',#526,#117);
#94=LINE('',#528,#118);
#95=LINE('',#529,#119);
#96=LINE('',#532,#120);
#97=LINE('',#536,#121);
#98=LINE('',#540,#122);
#99=LINE('',#544,#123);
#100=LINE('',#548,#124);
#101=LINE('',#563,#125);
#102=LINE('',#566,#126);
#103=LINE('',#567,#127);
#104=LINE('',#571,#128);
#105=LINE('',#574,#129);
#106=LINE('',#575,#130);
#107=LINE('',#580,#131);
#108=LINE('',#581,#132);
#109=LINE('',#584,#133);
#110=LINE('',#585,#134);
#111=LINE('',#589,#135);
#112=LINE('',#593,#136);
#113=LINE('',#610,#137);
#114=LINE('',#612,#138);
#115=VECTOR('',#412,5.);
#116=VECTOR('',#415,5.);
#117=VECTOR('',#418,35.2917960675006);
#118=VECTOR('',#419,5.);
#119=VECTOR('',#420,35.2917960675006);
#120=VECTOR('',#423,123.);
#121=VECTOR('',#426,35.2917960675006);
#122=VECTOR('',#429,98.0607530887415);
#123=VECTOR('',#432,35.2917960675006);
#124=VECTOR('',#435,98.0607530887415);
#125=VECTOR('',#452,5.);
#126=VECTOR('',#455,5.);
#127=VECTOR('',#456,98.0607530887415);
#128=VECTOR('',#461,5.);
#129=VECTOR('',#464,5.);
#130=VECTOR('',#465,35.2917960675006);
#131=VECTOR('',#470,5.);
#132=VECTOR('',#471,5.);
#133=VECTOR('',#474,35.2917960675006);
#134=VECTOR('',#475,5.);
#135=VECTOR('',#480,5.);
#136=VECTOR('',#485,5.);
#137=VECTOR('',#508,98.0607530887415);
#138=VECTOR('',#511,123.);
#139=CIRCLE('',#366,3.);
#140=CIRCLE('',#367,3.);
#141=CIRCLE('',#370,3.);
#142=CIRCLE('',#371,3.);
#143=CIRCLE('',#372,3.);
#144=CIRCLE('',#373,3.);
#145=CIRCLE('',#374,3.);
#146=CIRCLE('',#375,4.25);
#147=CIRCLE('',#376,4.25);
#148=CIRCLE('',#377,4.25);
#149=CIRCLE('',#378,4.25);
#150=CIRCLE('',#379,4.25);
#151=CIRCLE('',#381,3.);
#152=CIRCLE('',#384,3.);
#153=CIRCLE('',#387,3.);
#154=CIRCLE('',#390,3.);
#155=CIRCLE('',#392,3.);
#156=CIRCLE('',#394,4.25);
#157=CIRCLE('',#396,4.25);
#158=CIRCLE('',#398,4.25);
#159=CIRCLE('',#400,4.25);
#160=CIRCLE('',#402,4.25);
#161=VERTEX_POINT('',#516);
#162=VERTEX_POINT('',#517);
#163=VERTEX_POINT('',#519);
#164=VERTEX_POINT('',#521);
#165=VERTEX_POINT('',#525);
#166=VERTEX_POINT('',#527);
#167=VERTEX_POINT('',#531);
#168=VERTEX_POINT('',#533);
#169=VERTEX_POINT('',#535);
#170=VERTEX_POINT('',#537);
#171=VERTEX_POINT('',#539);
#172=VERTEX_POINT('',#541);
#173=VERTEX_POINT('',#543);
#174=VERTEX_POINT('',#545);
#175=VERTEX_POINT('',#547);
#176=VERTEX_POINT('',#550);
#177=VERTEX_POINT('',#552);
#178=VERTEX_POINT('',#554);
#179=VERTEX_POINT('',#556);
#180=VERTEX_POINT('',#558);
#181=VERTEX_POINT('',#561);
#182=VERTEX_POINT('',#565);
#183=VERTEX_POINT('',#569);
#184=VERTEX_POINT('',#573);
#185=VERTEX_POINT('',#577);
#186=VERTEX_POINT('',#578);
#187=VERTEX_POINT('',#583);
#188=VERTEX_POINT('',#587);
#189=VERTEX_POINT('',#591);
#190=VERTEX_POINT('',#595);
#191=VERTEX_POINT('',#598);
#192=VERTEX_POINT('',#601);
#193=VERTEX_POINT('',#604);
#194=VERTEX_POINT('',#607);
#195=EDGE_CURVE('',#161,#162,#139,.T.);
#196=EDGE_CURVE('',#162,#163,#91,.T.);
#197=EDGE_CURVE('',#163,#164,#140,.T.);
#198=EDGE_CURVE('',#164,#161,#92,.T.);
#199=EDGE_CURVE('',#164,#165,#93,.T.);
#200=EDGE_CURVE('',#166,#165,#94,.T.);
#201=EDGE_CURVE('',#161,#166,#95,.T.);
#202=EDGE_CURVE('',#167,#163,#96,.T.);
#203=EDGE_CURVE('',#168,#167,#141,.T.);
#204=EDGE_CURVE('',#169,#168,#97,.T.);
#205=EDGE_CURVE('',#170,#169,#142,.T.);
#206=EDGE_CURVE('',#171,#170,#98,.T.);
#207=EDGE_CURVE('',#172,#171,#143,.T.);
#208=EDGE_CURVE('',#173,#172,#99,.T.);
#209=EDGE_CURVE('',#174,#173,#144,.T.);
#210=EDGE_CURVE('',#175,#174,#100,.T.);
#211=EDGE_CURVE('',#165,#175,#145,.T.);
#212=EDGE_CURVE('',#176,#176,#146,.T.);
#213=EDGE_CURVE('',#177,#177,#147,.T.);
#214=EDGE_CURVE('',#178,#178,#148,.T.);
#215=EDGE_CURVE('',#179,#179,#149,.T.);
#216=EDGE_CURVE('',#180,#180,#150,.T.);
#217=EDGE_CURVE('',#181,#166,#151,.T.);
#218=EDGE_CURVE('',#175,#181,#101,.T.);
#219=EDGE_CURVE('',#182,#174,#102,.T.);
#220=EDGE_CURVE('',#181,#182,#103,.T.);
#221=EDGE_CURVE('',#183,#182,#152,.T.);
#222=EDGE_CURVE('',#173,#183,#104,.T.);
#223=EDGE_CURVE('',#184,#172,#105,.T.);
#224=EDGE_CURVE('',#183,#184,#106,.T.);
#225=EDGE_CURVE('',#185,#186,#153,.T.);
#226=EDGE_CURVE('',#186,#168,#107,.T.);
#227=EDGE_CURVE('',#167,#185,#108,.T.);
#228=EDGE_CURVE('',#187,#186,#109,.T.);
#229=EDGE_CURVE('',#169,#187,#110,.T.);
#230=EDGE_CURVE('',#187,#188,#154,.T.);
#231=EDGE_CURVE('',#188,#170,#111,.T.);
#232=EDGE_CURVE('',#189,#184,#155,.T.);
#233=EDGE_CURVE('',#171,#189,#112,.T.);
#234=EDGE_CURVE('',#190,#190,#156,.T.);
#235=EDGE_CURVE('',#191,#191,#157,.T.);
#236=EDGE_CURVE('',#192,#192,#158,.T.);
#237=EDGE_CURVE('',#193,#193,#159,.T.);
#238=EDGE_CURVE('',#194,#194,#160,.T.);
#239=EDGE_CURVE('',#189,#188,#113,.T.);
#240=EDGE_CURVE('',#185,#162,#114,.T.);
#241=ORIENTED_EDGE('',*,*,#195,.T.);
#242=ORIENTED_EDGE('',*,*,#196,.T.);
#243=ORIENTED_EDGE('',*,*,#197,.T.);
#244=ORIENTED_EDGE('',*,*,#198,.T.);
#245=ORIENTED_EDGE('',*,*,#198,.F.);
#246=ORIENTED_EDGE('',*,*,#199,.T.);
#247=ORIENTED_EDGE('',*,*,#200,.F.);
#248=ORIENTED_EDGE('',*,*,#201,.F.);
#249=ORIENTED_EDGE('',*,*,#197,.F.);
#250=ORIENTED_EDGE('',*,*,#202,.F.);
#251=ORIENTED_EDGE('',*,*,#203,.F.);
#252=ORIENTED_EDGE('',*,*,#204,.F.);
#253=ORIENTED_EDGE('',*,*,#205,.F.);
#254=ORIENTED_EDGE('',*,*,#206,.F.);
#255=ORIENTED_EDGE('',*,*,#207,.F.);
#256=ORIENTED_EDGE('',*,*,#208,.F.);
#257=ORIENTED_EDGE('',*,*,#209,.F.);
#258=ORIENTED_EDGE('',*,*,#210,.F.);
#259=ORIENTED_EDGE('',*,*,#211,.F.);
#260=ORIENTED_EDGE('',*,*,#199,.F.);
#261=ORIENTED_EDGE('',*,*,#212,.T.);
#262=ORIENTED_EDGE('',*,*,#213,.T.);
#263=ORIENTED_EDGE('',*,*,#214,.T.);
#264=ORIENTED_EDGE('',*,*,#215,.T.);
#265=ORIENTED_EDGE('',*,*,#216,.T.);
#266=ORIENTED_EDGE('',*,*,#217,.T.);
#267=ORIENTED_EDGE('',*,*,#200,.T.);
#268=ORIENTED_EDGE('',*,*,#211,.T.);
#269=ORIENTED_EDGE('',*,*,#218,.T.);
#270=ORIENTED_EDGE('',*,*,#218,.F.);
#271=ORIENTED_EDGE('',*,*,#210,.T.);
#272=ORIENTED_EDGE('',*,*,#219,.F.);
#273=ORIENTED_EDGE('',*,*,#220,.F.);
#274=ORIENTED_EDGE('',*,*,#221,.T.);
#275=ORIENTED_EDGE('',*,*,#219,.T.);
#276=ORIENTED_EDGE('',*,*,#209,.T.);
#277=ORIENTED_EDGE('',*,*,#222,.T.);
#278=ORIENTED_EDGE('',*,*,#222,.F.);
#279=ORIENTED_EDGE('',*,*,#208,.T.);
#280=ORIENTED_EDGE('',*,*,#223,.F.);
#281=ORIENTED_EDGE('',*,*,#224,.F.);
#282=ORIENTED_EDGE('',*,*,#225,.T.);
#283=ORIENTED_EDGE('',*,*,#226,.T.);
#284=ORIENTED_EDGE('',*,*,#203,.T.);
#285=ORIENTED_EDGE('',*,*,#227,.T.);
#286=ORIENTED_EDGE('',*,*,#226,.F.);
#287=ORIENTED_EDGE('',*,*,#228,.F.);
#288=ORIENTED_EDGE('',*,*,#229,.F.);
#289=ORIENTED_EDGE('',*,*,#204,.T.);
#290=ORIENTED_EDGE('',*,*,#230,.T.);
#291=ORIENTED_EDGE('',*,*,#231,.T.);
#292=ORIENTED_EDGE('',*,*,#205,.T.);
#293=ORIENTED_EDGE('',*,*,#229,.T.);
#294=ORIENTED_EDGE('',*,*,#232,.T.);
#295=ORIENTED_EDGE('',*,*,#223,.T.);
#296=ORIENTED_EDGE('',*,*,#207,.T.);
#297=ORIENTED_EDGE('',*,*,#233,.T.);
#298=ORIENTED_EDGE('',*,*,#234,.F.);
#299=ORIENTED_EDGE('',*,*,#212,.F.);
#300=ORIENTED_EDGE('',*,*,#235,.F.);
#301=ORIENTED_EDGE('',*,*,#213,.F.);
#302=ORIENTED_EDGE('',*,*,#236,.F.);
#303=ORIENTED_EDGE('',*,*,#214,.F.);
#304=ORIENTED_EDGE('',*,*,#237,.F.);
#305=ORIENTED_EDGE('',*,*,#215,.F.);
#306=ORIENTED_EDGE('',*,*,#238,.F.);
#307=ORIENTED_EDGE('',*,*,#216,.F.);
#308=ORIENTED_EDGE('',*,*,#231,.F.);
#309=ORIENTED_EDGE('',*,*,#239,.F.);
#310=ORIENTED_EDGE('',*,*,#233,.F.);
#311=ORIENTED_EDGE('',*,*,#206,.T.);
#312=ORIENTED_EDGE('',*,*,#196,.F.);
#313=ORIENTED_EDGE('',*,*,#240,.F.);
#314=ORIENTED_EDGE('',*,*,#227,.F.);
#315=ORIENTED_EDGE('',*,*,#202,.T.);
#316=ORIENTED_EDGE('',*,*,#195,.F.);
#317=ORIENTED_EDGE('',*,*,#201,.T.);
#318=ORIENTED_EDGE('',*,*,#217,.F.);
#319=ORIENTED_EDGE('',*,*,#220,.T.);
#320=ORIENTED_EDGE('',*,*,#221,.F.);
#321=ORIENTED_EDGE('',*,*,#224,.T.);
#322=ORIENTED_EDGE('',*,*,#232,.F.);
#323=ORIENTED_EDGE('',*,*,#239,.T.);
#324=ORIENTED_EDGE('',*,*,#230,.F.);
#325=ORIENTED_EDGE('',*,*,#228,.T.);
#326=ORIENTED_EDGE('',*,*,#225,.F.);
#327=ORIENTED_EDGE('',*,*,#240,.T.);
#328=ORIENTED_EDGE('',*,*,#234,.T.);
#329=ORIENTED_EDGE('',*,*,#235,.T.);
#330=ORIENTED_EDGE('',*,*,#236,.T.);
#331=ORIENTED_EDGE('',*,*,#237,.T.);
#332=ORIENTED_EDGE('',*,*,#238,.T.);
#333=CYLINDRICAL_SURFACE('',#365,3.);
#334=CYLINDRICAL_SURFACE('',#380,3.);
#335=CYLINDRICAL_SURFACE('',#383,3.);
#336=CYLINDRICAL_SURFACE('',#386,3.);
#337=CYLINDRICAL_SURFACE('',#389,3.);
#338=CYLINDRICAL_SURFACE('',#391,3.);
#339=CYLINDRICAL_SURFACE('',#393,4.25);
#340=CYLINDRICAL_SURFACE('',#395,4.25);
#341=CYLINDRICAL_SURFACE('',#397,4.25);
#342=CYLINDRICAL_SURFACE('',#399,4.25);
#343=CYLINDRICAL_SURFACE('',#401,4.25);
#344=ADVANCED_FACE('',(#38),#333,.T.);
#345=ADVANCED_FACE('',(#39),#30,.T.);
#346=ADVANCED_FACE('',(#40,#15,#16,#17,#18,#19),#31,.F.);
#347=ADVANCED_FACE('',(#41),#334,.T.);
#348=ADVANCED_FACE('',(#42),#32,.T.);
#349=ADVANCED_FACE('',(#43),#335,.T.);
#350=ADVANCED_FACE('',(#44),#33,.T.);
#351=ADVANCED_FACE('',(#45),#336,.T.);
#352=ADVANCED_FACE('',(#46),#34,.T.);
#353=ADVANCED_FACE('',(#47),#337,.T.);
#354=ADVANCED_FACE('',(#48),#338,.T.);
#355=ADVANCED_FACE('',(#49,#20),#339,.F.);
#356=ADVANCED_FACE('',(#50,#21),#340,.F.);
#357=ADVANCED_FACE('',(#51,#22),#341,.F.);
#358=ADVANCED_FACE('',(#52,#23),#342,.F.);
#359=ADVANCED_FACE('',(#53,#24),#343,.F.);
#360=ADVANCED_FACE('',(#54),#35,.T.);
#361=ADVANCED_FACE('',(#55),#36,.T.);
#362=ADVANCED_FACE('',(#56,#25,#26,#27,#28,#29),#37,.T.);
#363=CLOSED_SHELL('',(#344,#345,#346,#347,#348,#349,#350,#351,#352,#353,
#354,#355,#356,#357,#358,#359,#360,#361,#362));
#364=AXIS2_PLACEMENT_3D('placement',#514,#406,#407);
#365=AXIS2_PLACEMENT_3D('',#515,#408,#409);
#366=AXIS2_PLACEMENT_3D('',#518,#410,#411);
#367=AXIS2_PLACEMENT_3D('',#522,#413,#414);
#368=AXIS2_PLACEMENT_3D('',#524,#416,#417);
#369=AXIS2_PLACEMENT_3D('',#530,#421,#422);
#370=AXIS2_PLACEMENT_3D('',#534,#424,#425);
#371=AXIS2_PLACEMENT_3D('',#538,#427,#428);
#372=AXIS2_PLACEMENT_3D('',#542,#430,#431);
#373=AXIS2_PLACEMENT_3D('',#546,#433,#434);
#374=AXIS2_PLACEMENT_3D('',#549,#436,#437);
#375=AXIS2_PLACEMENT_3D('',#551,#438,#439);
#376=AXIS2_PLACEMENT_3D('',#553,#440,#441);
#377=AXIS2_PLACEMENT_3D('',#555,#442,#443);
#378=AXIS2_PLACEMENT_3D('',#557,#444,#445);
#379=AXIS2_PLACEMENT_3D('',#559,#446,#447);
#380=AXIS2_PLACEMENT_3D('',#560,#448,#449);
#381=AXIS2_PLACEMENT_3D('',#562,#450,#451);
#382=AXIS2_PLACEMENT_3D('',#564,#453,#454);
#383=AXIS2_PLACEMENT_3D('',#568,#457,#458);
#384=AXIS2_PLACEMENT_3D('',#570,#459,#460);
#385=AXIS2_PLACEMENT_3D('',#572,#462,#463);
#386=AXIS2_PLACEMENT_3D('',#576,#466,#467);
#387=AXIS2_PLACEMENT_3D('',#579,#468,#469);
#388=AXIS2_PLACEMENT_3D('',#582,#472,#473);
#389=AXIS2_PLACEMENT_3D('',#586,#476,#477);
#390=AXIS2_PLACEMENT_3D('',#588,#478,#479);
#391=AXIS2_PLACEMENT_3D('',#590,#481,#482);
#392=AXIS2_PLACEMENT_3D('',#592,#483,#484);
#393=AXIS2_PLACEMENT_3D('',#594,#486,#487);
#394=AXIS2_PLACEMENT_3D('',#596,#488,#489);
#395=AXIS2_PLACEMENT_3D('',#597,#490,#491);
#396=AXIS2_PLACEMENT_3D('',#599,#492,#493);
#397=AXIS2_PLACEMENT_3D('',#600,#494,#495);
#398=AXIS2_PLACEMENT_3D('',#602,#496,#497);
#399=AXIS2_PLACEMENT_3D('',#603,#498,#499);
#400=AXIS2_PLACEMENT_3D('',#605,#500,#501);
#401=AXIS2_PLACEMENT_3D('',#606,#502,#503);
#402=AXIS2_PLACEMENT_3D('',#608,#504,#505);
#403=AXIS2_PLACEMENT_3D('',#609,#506,#507);
#404=AXIS2_PLACEMENT_3D('',#611,#509,#510);
#405=AXIS2_PLACEMENT_3D('',#613,#512,#513);
#406=DIRECTION('axis',(0.,0.,1.));
#407=DIRECTION('refdir',(1.,0.,0.));
#408=DIRECTION('center_axis',(0.,0.,1.));
#409=DIRECTION('ref_axis',(0.707106781186548,-0.707106781186547,0.));
#410=DIRECTION('center_axis',(0.,0.,-1.));
#411=DIRECTION('ref_axis',(0.707106781186548,-0.707106781186547,0.));
#412=DIRECTION('',(0.,0.,-1.));
#413=DIRECTION('center_axis',(0.,0.,1.));
#414=DIRECTION('ref_axis',(0.707106781186548,-0.707106781186547,0.));
#415=DIRECTION('',(0.,0.,1.));
#416=DIRECTION('center_axis',(1.,0.,0.));
#417=DIRECTION('ref_axis',(0.,1.,0.));
#418=DIRECTION('',(0.,1.,0.));
#419=DIRECTION('',(0.,0.,-1.));
#420=DIRECTION('',(0.,1.,0.));
#421=DIRECTION('center_axis',(0.,0.,1.));
#422=DIRECTION('ref_axis',(1.,0.,0.));
#423=DIRECTION('',(1.,-9.42851783718257E-22,0.));
#424=DIRECTION('center_axis',(0.,0.,1.));
#425=DIRECTION('ref_axis',(-0.707106781186548,-0.707106781186547,0.));
#426=DIRECTION('',(0.,-1.,0.));
#427=DIRECTION('center_axis',(0.,0.,1.));
#428=DIRECTION('ref_axis',(-0.97324898946773,0.229752920547361,0.));
#429=DIRECTION('',(-0.447213595499958,-0.894427190999916,0.));
#430=DIRECTION('center_axis',(0.,0.,1.));
#431=DIRECTION('ref_axis',(-0.525731112119132,0.850650808352041,0.));
#432=DIRECTION('',(-1.,0.,0.));
#433=DIRECTION('center_axis',(0.,0.,1.));
#434=DIRECTION('ref_axis',(0.525731112119132,0.850650808352041,0.));
#435=DIRECTION('',(-0.447213595499958,0.894427190999916,0.));
#436=DIRECTION('center_axis',(0.,0.,1.));
#437=DIRECTION('ref_axis',(0.97324898946773,0.229752920547362,0.));
#438=DIRECTION('center_axis',(0.,0.,1.));
#439=DIRECTION('ref_axis',(-1.,0.,0.));
#440=DIRECTION('center_axis',(0.,0.,1.));
#441=DIRECTION('ref_axis',(-1.,0.,0.));
#442=DIRECTION('center_axis',(0.,0.,1.));
#443=DIRECTION('ref_axis',(-1.,0.,0.));
#444=DIRECTION('center_axis',(0.,0.,1.));
#445=DIRECTION('ref_axis',(-1.,0.,0.));
#446=DIRECTION('center_axis',(0.,0.,1.));
#447=DIRECTION('ref_axis',(-1.,0.,0.));
#448=DIRECTION('center_axis',(0.,0.,1.));
#449=DIRECTION('ref_axis',(0.97324898946773,0.229752920547362,0.));
#450=DIRECTION('center_axis',(0.,0.,-1.));
#451=DIRECTION('ref_axis',(0.97324898946773,0.229752920547362,0.));
#452=DIRECTION('',(0.,0.,1.));
#453=DIRECTION('center_axis',(0.894427190999916,0.447213595499958,0.));
#454=DIRECTION('ref_axis',(-0.447213595499958,0.894427190999916,0.));
#455=DIRECTION('',(0.,0.,-1.));
#456=DIRECTION('',(-0.447213595499958,0.894427190999916,0.));
#457=DIRECTION('center_axis',(0.,0.,1.));
#458=DIRECTION('ref_axis',(0.525731112119132,0.850650808352041,0.));
#459=DIRECTION('center_axis',(0.,0.,-1.));
#460=DIRECTION('ref_axis',(0.525731112119132,0.850650808352041,0.));
#461=DIRECTION('',(0.,0.,1.));
#462=DIRECTION('center_axis',(0.,1.,0.));
#463=DIRECTION('ref_axis',(-1.,0.,0.));
#464=DIRECTION('',(0.,0.,-1.));
#465=DIRECTION('',(-1.,0.,0.));
#466=DIRECTION('center_axis',(0.,0.,1.));
#467=DIRECTION('ref_axis',(-0.707106781186548,-0.707106781186547,0.));
#468=DIRECTION('center_axis',(0.,0.,-1.));
#469=DIRECTION('ref_axis',(-0.707106781186548,-0.707106781186547,0.));
#470=DIRECTION('',(0.,0.,-1.));
#471=DIRECTION('',(0.,0.,1.));
#472=DIRECTION('center_axis',(-1.,0.,0.));
#473=DIRECTION('ref_axis',(0.,-1.,0.));
#474=DIRECTION('',(0.,-1.,0.));
#475=DIRECTION('',(0.,0.,1.));
#476=DIRECTION('center_axis',(0.,0.,1.));
#477=DIRECTION('ref_axis',(-0.97324898946773,0.229752920547361,0.));
#478=DIRECTION('center_axis',(0.,0.,-1.));
#479=DIRECTION('ref_axis',(-0.97324898946773,0.229752920547361,0.));
#480=DIRECTION('',(0.,0.,-1.));
#481=DIRECTION('center_axis',(0.,0.,1.));
#482=DIRECTION('ref_axis',(-0.525731112119132,0.850650808352041,0.));
#483=DIRECTION('center_axis',(0.,0.,-1.));
#484=DIRECTION('ref_axis',(-0.525731112119132,0.850650808352041,0.));
#485=DIRECTION('',(0.,0.,1.));
#486=DIRECTION('center_axis',(0.,0.,1.));
#487=DIRECTION('ref_axis',(-1.,0.,0.));
#488=DIRECTION('center_axis',(0.,0.,-1.));
#489=DIRECTION('ref_axis',(-1.,0.,0.));
#490=DIRECTION('center_axis',(0.,0.,1.));
#491=DIRECTION('ref_axis',(-1.,0.,0.));
#492=DIRECTION('center_axis',(0.,0.,-1.));
#493=DIRECTION('ref_axis',(-1.,0.,0.));
#494=DIRECTION('center_axis',(0.,0.,1.));
#495=DIRECTION('ref_axis',(-1.,0.,0.));
#496=DIRECTION('center_axis',(0.,0.,-1.));
#497=DIRECTION('ref_axis',(-1.,0.,0.));
#498=DIRECTION('center_axis',(0.,0.,1.));
#499=DIRECTION('ref_axis',(-1.,0.,0.));
#500=DIRECTION('center_axis',(0.,0.,-1.));
#501=DIRECTION('ref_axis',(-1.,0.,0.));
#502=DIRECTION('center_axis',(0.,0.,1.));
#503=DIRECTION('ref_axis',(-1.,0.,0.));
#504=DIRECTION('center_axis',(0.,0.,-1.));
#505=DIRECTION('ref_axis',(-1.,0.,0.));
#506=DIRECTION('center_axis',(-0.894427190999916,0.447213595499958,0.));
#507=DIRECTION('ref_axis',(-0.447213595499958,-0.894427190999916,0.));
#508=DIRECTION('',(-0.447213595499958,-0.894427190999916,0.));
#509=DIRECTION('center_axis',(-9.42851783718257E-22,-1.,0.));
#510=DIRECTION('ref_axis',(1.,-9.42851783718257E-22,0.));
#511=DIRECTION('',(1.,-9.42851783718257E-22,0.));
#512=DIRECTION('center_axis',(0.,0.,1.));
#513=DIRECTION('ref_axis',(1.,0.,0.));
#514=CARTESIAN_POINT('',(0.,0.,0.));
#515=CARTESIAN_POINT('Origin',(61.5,3.,0.));
#516=CARTESIAN_POINT('',(64.5,3.,5.));
#517=CARTESIAN_POINT('',(61.5,-1.187993247485E-19,5.));
#518=CARTESIAN_POINT('Origin',(61.5,3.,5.));
#519=CARTESIAN_POINT('',(61.5,-1.187993247485E-19,0.));
#520=CARTESIAN_POINT('',(61.5,0.,0.));
#521=CARTESIAN_POINT('',(64.5,3.,0.));
#522=CARTESIAN_POINT('Origin',(61.5,3.,0.));
#523=CARTESIAN_POINT('',(64.5,3.,0.));
#524=CARTESIAN_POINT('Origin',(64.5,-1.21627880099655E-19,0.));
#525=CARTESIAN_POINT('',(64.5,38.2917960675006,0.));
#526=CARTESIAN_POINT('',(64.5,-1.21627880099655E-19,0.));
#527=CARTESIAN_POINT('',(64.5,38.2917960675006,5.));
#528=CARTESIAN_POINT('',(64.5,38.2917960675006,0.));
#529=CARTESIAN_POINT('',(64.5,-1.21627880099655E-19,5.));
#530=CARTESIAN_POINT('Origin',(2.3830594851575E-15,52.4469033204902,0.));
#531=CARTESIAN_POINT('',(-61.5,-2.82855535115477E-21,0.));
#532=CARTESIAN_POINT('',(-64.5,0.,0.));
#533=CARTESIAN_POINT('',(-64.5,3.,0.));
#534=CARTESIAN_POINT('Origin',(-61.5,3.,0.));
#535=CARTESIAN_POINT('',(-64.5,38.2917960675006,0.));
#536=CARTESIAN_POINT('',(-64.5,39.,0.));
#537=CARTESIAN_POINT('',(-64.1832815729998,39.6334368540005,0.));
#538=CARTESIAN_POINT('Origin',(-61.5,38.2917960675006,0.));
#539=CARTESIAN_POINT('',(-20.3291796067501,127.3416407865,0.));
#540=CARTESIAN_POINT('',(-19.5,129.,0.));
#541=CARTESIAN_POINT('',(-17.6458980337503,129.,0.));
#542=CARTESIAN_POINT('Origin',(-17.6458980337503,126.,0.));
#543=CARTESIAN_POINT('',(17.6458980337503,129.,0.));
#544=CARTESIAN_POINT('',(19.5,129.,0.));
#545=CARTESIAN_POINT('',(20.3291796067501,127.3416407865,0.));
#546=CARTESIAN_POINT('Origin',(17.6458980337503,126.,0.));
#547=CARTESIAN_POINT('',(64.1832815729998,39.6334368540005,0.));
#548=CARTESIAN_POINT('',(64.5,39.,0.));
#549=CARTESIAN_POINT('Origin',(61.5,38.2917960675006,0.));
#550=CARTESIAN_POINT('',(4.25,109.5,0.));
#551=CARTESIAN_POINT('Origin',(0.,109.5,0.));
#552=CARTESIAN_POINT('',(4.25,64.5,0.));
#553=CARTESIAN_POINT('Origin',(0.,64.5,0.));
#554=CARTESIAN_POINT('',(49.25,19.5,0.));
#555=CARTESIAN_POINT('Origin',(45.,19.5,0.));
#556=CARTESIAN_POINT('',(4.25,19.5,0.));
#557=CARTESIAN_POINT('Origin',(0.,19.5,0.));
#558=CARTESIAN_POINT('',(-40.75,19.5,0.));
#559=CARTESIAN_POINT('Origin',(-45.,19.5,0.));
#560=CARTESIAN_POINT('Origin',(61.5,38.2917960675006,0.));
#561=CARTESIAN_POINT('',(64.1832815729998,39.6334368540005,5.));
#562=CARTESIAN_POINT('Origin',(61.5,38.2917960675006,5.));
#563=CARTESIAN_POINT('',(64.1832815729998,39.6334368540005,0.));
#564=CARTESIAN_POINT('Origin',(64.5,39.,0.));
#565=CARTESIAN_POINT('',(20.3291796067501,127.3416407865,5.));
#566=CARTESIAN_POINT('',(20.3291796067501,127.3416407865,0.));
#567=CARTESIAN_POINT('',(64.5,39.,5.));
#568=CARTESIAN_POINT('Origin',(17.6458980337503,126.,0.));
#569=CARTESIAN_POINT('',(17.6458980337503,129.,5.));
#570=CARTESIAN_POINT('Origin',(17.6458980337503,126.,5.));
#571=CARTESIAN_POINT('',(17.6458980337503,129.,0.));
#572=CARTESIAN_POINT('Origin',(19.5,129.,0.));
#573=CARTESIAN_POINT('',(-17.6458980337503,129.,5.));
#574=CARTESIAN_POINT('',(-17.6458980337503,129.,0.));
#575=CARTESIAN_POINT('',(19.5,129.,5.));
#576=CARTESIAN_POINT('Origin',(-61.5,3.,0.));
#577=CARTESIAN_POINT('',(-61.5,-2.82855535115477E-21,5.));
#578=CARTESIAN_POINT('',(-64.5,3.,5.));
#579=CARTESIAN_POINT('Origin',(-61.5,3.,5.));
#580=CARTESIAN_POINT('',(-64.5,3.,0.));
#581=CARTESIAN_POINT('',(-61.5,0.,0.));
#582=CARTESIAN_POINT('Origin',(-64.5,39.,0.));
#583=CARTESIAN_POINT('',(-64.5,38.2917960675006,5.));
#584=CARTESIAN_POINT('',(-64.5,39.,5.));
#585=CARTESIAN_POINT('',(-64.5,38.2917960675006,0.));
#586=CARTESIAN_POINT('Origin',(-61.5,38.2917960675006,0.));
#587=CARTESIAN_POINT('',(-64.1832815729998,39.6334368540005,5.));
#588=CARTESIAN_POINT('Origin',(-61.5,38.2917960675006,5.));
#589=CARTESIAN_POINT('',(-64.1832815729998,39.6334368540005,0.));
#590=CARTESIAN_POINT('Origin',(-17.6458980337503,126.,0.));
#591=CARTESIAN_POINT('',(-20.3291796067501,127.3416407865,5.));
#592=CARTESIAN_POINT('Origin',(-17.6458980337503,126.,5.));
#593=CARTESIAN_POINT('',(-20.3291796067501,127.3416407865,0.));
#594=CARTESIAN_POINT('Origin',(0.,109.5,0.));
#595=CARTESIAN_POINT('',(4.25,109.5,5.));
#596=CARTESIAN_POINT('Origin',(0.,109.5,5.));
#597=CARTESIAN_POINT('Origin',(0.,64.5,0.));
#598=CARTESIAN_POINT('',(4.25,64.5,5.));
#599=CARTESIAN_POINT('Origin',(0.,64.5,5.));
#600=CARTESIAN_POINT('Origin',(45.,19.5,0.));
#601=CARTESIAN_POINT('',(49.25,19.5,5.));
#602=CARTESIAN_POINT('Origin',(45.,19.5,5.));
#603=CARTESIAN_POINT('Origin',(0.,19.5,0.));
#604=CARTESIAN_POINT('',(4.25,19.5,5.));
#605=CARTESIAN_POINT('Origin',(0.,19.5,5.));
#606=CARTESIAN_POINT('Origin',(-45.,19.5,0.));
#607=CARTESIAN_POINT('',(-40.75,19.5,5.));
#608=CARTESIAN_POINT('Origin',(-45.,19.5,5.));
#609=CARTESIAN_POINT('Origin',(-19.5,129.,0.));
#610=CARTESIAN_POINT('',(-19.5,129.,5.));
#611=CARTESIAN_POINT('Origin',(-64.5,0.,0.));
#612=CARTESIAN_POINT('',(-64.5,0.,5.));
#613=CARTESIAN_POINT('Origin',(0.,52.4469033204902,5.));
#614=UNCERTAINTY_MEASURE_WITH_UNIT(LENGTH_MEASURE(0.01),#618,
'DISTANCE_ACCURACY_VALUE',
'Maximum model space distance between geometric entities at asserted c
onnectivities');
#615=UNCERTAINTY_MEASURE_WITH_UNIT(LENGTH_MEASURE(1.E-6),#618,
'DISTANCE_ACCURACY_VALUE',
'Maximum model space distance between geometric entities at asserted c
onnectivities');
#616=(
GEOMETRIC_REPRESENTATION_CONTEXT(3)
GLOBAL_UNCERTAINTY_ASSIGNED_CONTEXT((#614))
GLOBAL_UNIT_ASSIGNED_CONTEXT((#618,#621,#619))
REPRESENTATION_CONTEXT('','3D')
);
#617=(
GEOMETRIC_REPRESENTATION_CONTEXT(3)
GLOBAL_UNCERTAINTY_ASSIGNED_CONTEXT((#615))
GLOBAL_UNIT_ASSIGNED_CONTEXT((#618,#621,#619))
REPRESENTATION_CONTEXT('','3D')
);
#618=(
LENGTH_UNIT()
NAMED_UNIT(*)
SI_UNIT(.MILLI.,.METRE.)
);
#619=(
NAMED_UNIT(*)
SI_UNIT($,.STERADIAN.)
SOLID_ANGLE_UNIT()
);
#620=DIMENSIONAL_EXPONENTS(0.,0.,0.,0.,0.,0.,0.);
#621=(
CONVERSION_BASED_UNIT('degree',#623)
NAMED_UNIT(#620)
PLANE_ANGLE_UNIT()
);
#622=(
NAMED_UNIT(*)
PLANE_ANGLE_UNIT()
SI_UNIT($,.RADIAN.)
);
#623=PLANE_ANGLE_MEASURE_WITH_UNIT(PLANE_ANGLE_MEASURE(0.01745329252),#622);
#624=SHAPE_DEFINITION_REPRESENTATION(#625,#626);
#625=PRODUCT_DEFINITION_SHAPE('',$,#628);
#626=SHAPE_REPRESENTATION('',(#364),#616);
#627=PRODUCT_DEFINITION_CONTEXT('part definition',#632,'design');
#628=PRODUCT_DEFINITION('T-CONN 1TO1 [129 129 5] 45 H5 D8-5',
'T-CONN 1TO1 [129 129 5] 45 H5 D8-5',#629,#627);
#629=PRODUCT_DEFINITION_FORMATION('',$,#634);
#630=PRODUCT_RELATED_PRODUCT_CATEGORY(
'T-CONN 1TO1 [129 129 5] 45 H5 D8-5',
'T-CONN 1TO1 [129 129 5] 45 H5 D8-5',(#634));
#631=APPLICATION_PROTOCOL_DEFINITION('international standard',
'automotive_design',2009,#632);
#632=APPLICATION_CONTEXT(
'Core Data for Automotive Mechanical Design Process');
#633=PRODUCT_CONTEXT('part definition',#632,'mechanical');
#634=PRODUCT('T-CONN 1TO1 [129 129 5] 45 H5 D8-5',
'T-CONN 1TO1 [129 129 5] 45 H5 D8-5',$,(#633));
#635=PRESENTATION_STYLE_ASSIGNMENT((#636));
#636=SURFACE_STYLE_USAGE(.BOTH.,#637);
#637=SURFACE_SIDE_STYLE('',(#638));
#638=SURFACE_STYLE_FILL_AREA(#639);
#639=FILL_AREA_STYLE('',(#640));
#640=FILL_AREA_STYLE_COLOUR('',#641);
#641=COLOUR_RGB('',0.956862745098039,0.956862745098039,0.956862745098039);
ENDSEC;
END-ISO-10303-21;
